"zombiez" guitar tab

Intro: x3
E|-----------------------
B|-----------------------
G|-----------------------
D|---------2---3-3-3-2--
A|---0-0-3--------------
E|-----------------------

E|--------
B|--------
G|--------
D|---2-2-
A|---3-2-
E|--------

Verse: x8
E|----------------------
B|----------------------
G|----------------------
D|--2-2---2---2-2-3-2-
A|--0-0-3-0---0-0-----
E|-----------------------

Chorus: x3
E|----------------------
B|----------------------
G|----------------------
D|-2-2-2-2---5-5-5-4--
A|-0-0-3-----3-3-3-2--
E|-----------------------

E|--------
B|--------
G|--------
D|---5-4-
A|---3-2-
E|--------

Repeat Verse x8
Repeat Chorus x6

E|------------
B|------------
G|------------
D|---5-4-2- x2
A|---3-2-0---
E|------------

Bass & Drum Solo

E|----------------------------------------------------
B|----------------------------------------------------
G|----------------------------------------------------
D|---2-2-2-2-2-2-2-2-2---2-2-2-2-2-2-2-2-2-- x8
A|---0-0-0-0-3-0-0-0-0---0-0-0-0---0-0-0-0------
E|-------------------------------3--------------------

E|------------------
B|------------------
G|------------------
D|---2-2-----2-----
A|---0-0--3--------
E|------------------

Chorus x6

E|---------
B|---------
G|---------
D|--2- x1-
A|--0-----
E|---------