"Rape Me With A Kiss" Guitar Tabs

E|-------
B|-------
G|-------
D|---2---
A|---0---
E|-------

x8

E|----------------
B|----------------
G|----------------
D|---2--2--2--2--
A|---0--3--0--3--
E|----------------

E|-------------------
B|-------------------
G|-------------------
D|---2-----2-----2--
A|---0--3-----3--0-
E|-------------------


Verse
E |-------------------------------
B|--------------------------------
G|--------------------------------
D|---2--2--2--2--2-----2-----2--
A|---0--3--0--3--0--3-----3--0-
E|--------------------------------

Chorus
E |---------------
B|---------------
G|---------------
D|---2-----2-----
A|---0--3-----3--
E|---------------

Bridge x2
E |-------------------------------------------------------------------------------
B|-------------------------------------------------------------------------------
G|-------------------------------------------------------------------------------
D|--------------------------------------------------------------------------------
A|---4--0--4--4--0--4--4--0--4--5--5--5--4---4--0--4--4--0--4--4--0--4--2--2--2--2
E|---2--0--2--2--0--2--2--0--2--3--3--3--2---2--0--2--2--0--2--2--0--2--0--0--0--0

E|-------------------------------------------------------------------------------
B|-------------------------------------------------------------------------------
G|-------------------------------------------------------------------------------
D|-------------------------------------------------------------------------------
A|---4--4--2--4--4--4--4--4--4--5--5--5--4--4--4--4--4--4--4--4--4--4--2--2--2--2
E|---2--0--4--2--0--2--2--0--2--3--3--3--2--2--0--2--2--0--2--2--0--2--0--0--0--0

Verse/Chorus